JTX1000

Cari Kod Lagu

Loading...

Sheila On 7 - Bila Kau Tak Disampingku

index

     A5          C5

|-------------------------|
|-------------------------|
|----------------5--------|
|----7-----------5--------|
|----7-----------3--------|
|----5--------------------|


#--------------------------------------------------------------------------#



Intro :                       C      G              C


|---------------------------------------------------------------|
|------------5--8--5--------------------------------------------|
|---/5---7------------5--7--5------0--2--0----------------------|
|-------------------------------2-----------2--0----------------| 2x
|-------------------------------------------------3-------------|
|---------------------------------------------------------------|



  C
 Tak seharusnya kita berpisah

  G
  Tak semestinya kita bertengkar
  Am                        Em
  Karna diriku masih butuh kau

      Dm
  Maafkanlah sikapku

                         C
  Lupakanlah salahku itu

Back to : intro


     C
(*)  Terlalu bodoh untuk diriku

     G
     Menahan berat jutaan rindu

     Am                 Em
     Apalagi menahan egoku

          Dm
     Maafkanlah sikapku

          Dm
     Lupakanlah salahku

          E
     Luapkan kepadaku  0o....


Reff :

                              A
      Takkan kubiarkan kau menangis

                       C#m
      Takkan kubiarkan kau terkikis

           Bm                  E
      Terluka perasaan oleh semua ucapanku

                       A
      Maafkanlah semua sifat kasarku

                        C#m
      Bukan maksudku tuk melukaimu

           Bm                        E
      Aku hanyalah orang yang penuh rasa cemburu

       D             C#m  Bm   A  F  G  C
      Bila kau tak disampingku


      Aa.....




    C5    C5 C5 C5  |--mute--|       A5          A5 A5 A5

|---------------------------------------------------------------|
|---------------------------------------------------------------|
|---5--x--5--5--5-----------------------------------------------|
|---5--x--5--5--5---5--5h7--5--------7--x--x--x--7--7--7--------|
|---3--x--5--5--5--------------7--5--7--x--x--x--7--7--7--------|
|------------------------------------5--x--x--x--5--5--5--------|


    C5    C5 C5 C5  |--mute--|       A5          A5 A5 A5

|---------------------------------------------------------------|
|---------------------------------------------------------------|
|---5--x--5--5--5-----------------------------------------------|
|---5--x--5--5--5---5--5h7--5--------7--x--x--x--7--7--7--------|
|---3--x--5--5--5--------------7--5--7--x--x--x--7--7--7--------|
|------------------------------------5--x--x--x--5--5--5--------|


    F                                             C

|--------8-------8-----8--------8-------8-----8----------8------|
|---7/8-----7/8-----8------7/8-----7/8-----8----------------8---|
|-------------------------------------------------9p8h9---------|
|---------------------------------------------------------------|
|---------------------------------------------------------------|
|---------------------------------------------------------------|


                            C                             C

|----------8-----8--------------------8--------8----------------|
|-------------8-----8--------------------8--------8-------------|
|---9p8h9--------------9p8--5~~--8h9--------9--------9p8--5~~---|
|---------------------------------------------------------------|
|---------------------------------------------------------------|
|---------------------------------------------------------------|


                                          C

|---------8---10^r---10^r---10^r---10^r---8~~-------------------|
|---/10---------------------------------------------------------|
|---------------------------------------------------------------|
|---------------------------------------------------------------|
|---------------------------------------------------------------|
|---------------------------------------------------------------|


Back to :  (*)


  D               C#m Bm
  Bila kau tak disampingku

  D               C#m Bm   F#m(fill)
  Bila kau tak disampingku


fill


|-----2h4-------------|
|---------------------|
|---------------------|
|---------------------|
----------------------|
|---------------------|

End

Sheila On 7 feat Tasya - Jangan Takut Gelap

Intro:
E

      E                          C#m
Hai kawan, jangan takut jangan resah
        F#m        A          B
Bila lampu kamar mulai dipadamkan
          E          G#m       C#m
Kukan s'lalu menyanyikan lagu ini
          F#m          B             E
Hingga nanti kau tidur berselimut mimpi

                  F#7              F#m
Jangan lupa esok kita punya janji
         
S'makin cepat kita tidur
          F#sus4                     B
s'makin cepat kita bertemu kembali
 
Reff :
*E                                *C#m
Berdoalah sebelum kita tidur
F#m                   E
jangan lupa cuci kaki tanganmu
G#m                  A     B   E
Jangan lupa doakan mama papa kita

( Reff 2X )
    C#m           B   G#m    E
Jangan takut akan gelap
    C#m           B         G#m        E     B        G#m7
Kar'na gelap melindungi diri kita, dari kelelahan.....

Part Solo:

C#m B A E
C#m D B D E

Back to Reff

End

Sheila on 7 - Buat Aku Tersenyum

Intro

1|-----------------------------
2|-----------------------------
3|--4/9--9/7--7/5-5-7-9-7-5~~--
4|-----------------------------
5|-----------------------------
6|-----------------------------

Intro : G Em G Em

          G      Em
Datanglah sayang dan
                D
Biarkan ku berbaring
       G        Em
Di pelukan mu walau
        D
Tuk sejenak
        G      Em
Usaplah dahiku dan kan
            D
Kukatakan semua

              C
(*) Bila ku lelah tetaplah
          G
      Disini
                    Em
      Jangan tinggalkan aku
           D
      Sendiri
                 C
      Bila ku marah biarkan
               G
      Ku bersandar
                    Em
      Jangan kau pergi
                   D
      Untuk menghindar


        G       Em
Rasakan resahku dan
               D
Buat aku  tersenyum
       G
Dengan canda tawamu
Em            D
walau tuk sekejap
      G
Karna hanya engkaulah
Em                   D
Yg sanggup redahkan aku

                 C
(**) Karna engkaulah

        Satu-satu nya untuk
        G
        Ku
                       Em
        Dan pastikan kita
                    D
        Selalu bersama
                     C
        Karna dirimu lah yg

        Sanggup mengerti
         G
        Aku
                Em
        Dalam susah atau
              D
        Pun senang

C           G
Dapatkah engkau selalu
       D
Menjagaku
    C           G
Dan mampukah engkau
               D
Mempertahankan ku

Hu wo wo...

Back to (*)

Int : C G Em D (2x)
End : G Em G Em G

1|-------------||    Ket: 12* play di Fret 12
2|-------------||              
3|------12*----||
4|--12*--------||
5|-------------||
6|-------------||

End