JTX1000

Cari Kod Lagu

Loading...

Lagu Raya - Selamat Hari Raya

Intro:

E|---------------------------------------------------|
B|---------------------------------------------------|
G|-------------------------------2-0-------------------|
D|---0-2---0-----------0---0-2-3-----3-2-----------|
A|-3-----3---3-2---2-3---3------------------------|
E|---------------3------------------------------------|


E|--------------------------------------------------|
B|--------------------------------------------------|
G|--------------0----------------------------------|
D|---0--2---0-2---3--0-2-3-2---0-2-0-----0-----|
A|-3------3------------------3-------2-3---3-----|
E|-------------------------------------------------|

E|-----------------------------------------|
B|--------------------0-1-----------------|
G|----------------0-2---------------------|
D|---0-2-3-0-2-3----------3-2-0--------|
A|-3----------------------------3---------|
E|----------------------------------------|

End

No comments:

Post a Comment