JTX1000

Cari Kod Lagu

Loading...

Naif - Jangan Terlalu Naif

Intro:
Dsus - G - Dsus - G

<Bait 1>
Dsus      G
Kuingin tahu
Dsus        G
Kau harus mau
Dsus        G
Kuingin kau begitu
Dsus       G
Agar kau tahu


<Bridge>
           C
Jadilah engkau
          Am     Em
Miliku slalu... utuh
C           Am     B7
Tanpa tersentuh... cuma aku


<Bait 2>
Dsus     G
Bila Kumati
Dsus       G
Kau juga mati
Dsus       G
Walau tak ada cinta
Dsus        G
Sehidup semati

Goto <Bridge>

<Reff>
     EMaj          AMaj
Mengapa... aku begini
       Emaj           AMaj
Jangan kau... pertanyakan

Goto <Bait 2>

<Guitar Solo>
       C                       Am               Em
-----|-----------------------|-----------------|----------------------
-----|-----------------------|-----------------|----------------------
-----|--------------5--------|-----------------|----------------------
-----|----------5-7----7\...-|-2-----------0h2-|-2---4-4----2h4--2----
---2-|-3---5/7---------------|-----------------|----------------------
-----|-----------------------|-----------------|----------------------

       C                       Am               B7
-----|-----------------------|-----------------|----------------------
-----|-----------------------|-----------------|----------------------
-----|--------------5--------|-----------------|----------------------
-----|----------5-7----7\...-|-2-----------2h4-|-4---7-7--7/9---9-9-9-
---2-|-3---5/7---------------|-----------------|----------------------
-----|-----------------------|-----------------|----------------------

End

No comments:

Post a Comment