JTX1000

Cari Kod Lagu

Loading...

Gigi - Andai

Intro:
( play during the verses)

 Dm7                 C7  
------------0-------------------0-------
-----6-------------------5--------------
----------------------------------------
---------7-------------------5----------
-5-------------------3------------------
----------------------------------------

verses:
Dm                C
Memang benar ku salah
               Bb          
Tak menghargai perasaanmu
    C                        Dm
Dan maenghancurkan rasa cintamu
                  C
Saat ku ingat dirimu
                Bb
Harummu yang  memeluk nafasku
     C                  Dm
Dan memberikanku kehangatan
Dm                  C      
Terangnya seribu bintang
               Bb
Tak dapat menyamar cahaya
  C                   Dm
Keindahanmu dari wujudmu
                    C
Dan aku tak mengijinkan
            Bb      
Cahaya meredup karenaku
    C
Dan atas kesombonganku


Riff I:

F                       A7
Andai... ku tak membuat dirimu
                Bb        Dm     C
Menjadikan yang kedua atas cintaku
    F                    A7
Janganlah... keterpurukanku ini
                      Bb
Membuatku kau membenciku
  C
Selamanya dan membunuhku

Back to Riff

solo:
  Bb C A Bb
|------------------------------------------------------------------
|-6/8~---6-6--6/8-8-86-6--6/8-86--6----6~---10~------6~-----
|---------------------------------------------------9--------------
|------------------------------------------------------------------
|------------------------------------------------------------------
|------------------------------------------------------------------

-----------------------------------------------8---6---5----------|
-6/8~---6-6--6/8-8-86-6--6/8-86--6-----66~-------------6~---|
-------------------------------------------------------------------|
-------------------------------------------------------------------|
-------------------------------------------------------------------|
-------------------------------------------------------------------|

Riff II:
G                       B
Andai... ku tak membuat dirimu
                 C          Em    D
Menjadiakan yang kedua atas cintaku
   G                     B  
Janganlah... keterpurukanku ini
                C
Membuat kau membenciku
  D
Selamanya dan membunuhku

Back to Riff II

-End of tab


Intro:
(play during the verse)

    Am                G                 F  
e |-------------------------------------------------------
B |---1---0----1---0----1---0----1---0----1---0----1---0--
G |-----2--------2--------0--------0--------2--------2----
D |-------------------------------------3--------3--------
A |-0--------0--------------------------------------------
E |-------------------3--------3--------------------------

    G
   --------------------|
   ---0---0----0---0---|
   -----0--------0-----|
   --------------------|
   --------------------|
   -3--------3---------|

Fill 1 :

e |----------------------|
B |----------------------|
G |----------------------|
D |----------------------|
A |---3-2h3p2~---5/7~~---|
E |------------5---------|

Fill 2 :

e |--/3---3-3~--------------|
B |-------------6-5-3~~-----|
G |-------------------------|
D |-------------------------|
A |-------------------------|
E |-------------------------|

Fill 3 :

e |--3~---------------------|
B |------6-5-3--5-6-5-6-----|
G |---------------------5~~-|
D |-------------------------|
A |-------------------------|
E |-------------------------|

Verse:

Am                G
Memang benar ku salah
               F          
Tak menghargai perasaanmu
    G                        Am
Dan menghancurkan rasa cintamu
                  G
Saat ku ingat dirimu
                F
Harummu yang  memeluk nafasku
      C                  Am   Fill 1
Yang memberikanku kehangatan


(Play fill 2 over verse)
Am                  G      
Terangnya seribu bintang

(Play fill 3 over verse)
               F
Tak dapat menyamai cahaya
  G                    Am
Keindahanmu dari wujudmu

(Play fill 2 over verse)
                    G
Dan aku tak mengijinkan

(Play fill 3 over verse)
            F      
Cahaya meredup karenaku
    G
Dan atas kesombonganku


Riff I:

Am                       C    
Andai... ku tak membuang dirimu
                F        Am     G
Menjadikan yang kedua atas cintaku
    Am                    C
Janganlah... keterpurukanku ini
                      F
Membuatmu kau membenciku
  G
Selamanya dan membunuhku

Back to Riff I

Solo 1:

e |-----------------------------------------------------------|
B |----------------------------------------------------------|
G |-5/7~---5-5--5/7--5--5-5/7--5--5/9-9~~-4-4/5-5~~---|
D |----------------------------------------------------------|
A |----------------------------------------------------------|
E |-----------------------------------------------------------|

e |------------------------------------------------------------------|
B |-----------------------------------------------------------------|
G |-5/7~---5-5--5/7--5--5-5/7--5--5/12-12~~--10-9~-/5-5~~---|
D |-----------------------------------------------------------------|
A |-----------------------------------------------------------------|
E |-----------------------------------------------------------------|

e |-----------------------------------------|
B |-----------------------------------------|
G |-5/7~---5-5~--5/9-9~~-4-4/5-5~~---|
D |----------------------------------------|
A |----------------------------------------|
E |-----------------------------------------|

e |------------------------------------------------|
B |------------------------------------------------|
G |-5/7~---5-5~--5/12-12~~--10-9~-/5-5~~---|
D |-----------------------------------------------|
A |-----------------------------------------------|
E |-----------------------------------------------|  


Riff II:

D                       F#
Andai... ku tak membuang dirimu
                 G          Bm    A
Menjadikan yang kedua atas cintaku
   D                     F#  
Janganlah... keterpurukanku ini
                G
Membuat kau membenciku
  A
Selamanya dan membunuhku

Back to Riff II

Solo 2:

e |-----------------------------------------|
B |-----------------------------------------|
G |-3/5~---3-3~--3/7-7~~-2-2/3-3~~---|
D |----------------------------------------|
A |----------------------------------------|
E |----------------------------------------|

e |----------------------------------------------|
B |----------------------------------------------|
G |-3/5~---3-3~--3/10-10~~--8-7~-/3-3~~---|
D |----------------------------------------------|
A |----------------------------------------------|
E |----------------------------------------------|  

Ending :

e |-----------------------------------------|
B |-5----3---2--2-----0-2----7--2-/3--3--|
G |-4--4---4------2-----2----6--------2--|
D |-2-----------2---2--------4------------|
A |-----------------------------------------|
E |-----------------------------------------|

e |---------------------------------------------|
B |-5----3---2--2-----0-2----7---8---7---3--|
G |-4--4---4------2-----2----6---7---6---2--|
D |-2-----------2---2--------4---5---4---0--|
A |--------------------------------------------|
E |---------------------------------------------|    

End

No comments:

Post a Comment