JTX1000

Cari Kod Lagu

Loading...

ACAB - Fight For Your Right

Intro: G5 B5 C5 D5
Chorus : E5 D5 C5 B5 C5 D5

Solo

e||-------------------------------------------------------------------------|
B||------------------------------------------------------------------------|
G||------------------------------------------2---2-4-2-4-5-4-5----------|
D||------------------------2---2-4-2-4-5-4-5---5------------------------|
A||------2---2-3-2-3-5-3-5---5------------------------------------------|
E||--3-5---5--------------------------------------------------------------|

e||--------------2---2-3-2-3-3s5--3-5-5s7--5-7-7s8--7-8-8s10--8-10--10s12-----|
B||--3---3-5-3-5---5-----------------------------------------------------------------|
G||----5------------------------------------------------------------------------------|
D||-----------------------------------------------------------------------------------|
A||-----------------------------------------------------------------------------------|
E||------------------------------------------------------------------------------------|

e||--10-12-12s14--12-14-14s15--14-15-14-15--17b--15-15-14-15-14--12--14-------|
B||----------------------------------------------------------------------------------------|
G||----------------------------------------------------------------------------------------|
D||----------------------------------------------------------------------------------------|
A||----------------------------------------------------------------------------------------|
E||----------------------------------------------------------------------------------------|

e||--12-14-12-10-12--10-12-10----12----12----12---------------|
B||---------------------------13----12----10------8-8~------------|
G||------------------------------------------------------------------|
D||------------------------------------------------------------------|
A||------------------------------------------------------------------|
E||------------------------------------------------------------------|

e||----------------------------------------------------------------------|
B||--7-8-10-8-7-8-7h8-------8----------------------------------------|
G||-------------------7-7s9---9-7-9-7------9---9---9-----------------|
D||-------------------------------------10---9---7---7s5~-------------|
A||---------------------------------------------------------------------|
E||----------------------------------------------------------------------|


End

1 comment:

  1. tab ramai yg x tau baca..termasuklah aku..hehehe..

    ReplyDelete