JTX1000

Cari Kod Lagu

Loading...

ACAB - Streets of Uptown

Intro 2x
E|--------------|--------------|------------------------------|----------------------|
B|--------------|--------------|------------------------------|----------------------|
G|-5-5----------|-9-9----------|------------------------------|--------------------|
D|-5-5-5-3-2-0--|-9-9-9-7-6-0--|-7-7--------------------------|-3-3------------|
A|-3-3----------|-7-7----------|-7-7-7-5-3-2-3-5-3-2-3-2-0----|-3-3-3-2-0----|
E|--------------|--------------|-5-5-----------------------3--|-1-1-------3--------|
  P.M ........    ...........    ...........................    ...........  

e|--------------|-------------------------------------------------------------------|
B|--------------|-------------------------------------------------------------------|
G|-5-5----------|------------------------------------------------------------------|
D|-5-5-5-3-2-0--|-5-5------------------------------------------------------------|
A|-3-3----------|-5-5-5-3-2-0-2-3-2-0-2-0---0----------------------------------|
E|--------------|-3-3---------------------3----------------------------------------|
  P.M ........    ...........................
 
 Little solo after intro 2x

  G5                C5              E                   E|-----------------|---------------|-------------------|-----------------------------|
B|-----------------|------8-6-5----|------8-6-6-6p5----|5-5-5-------------5------|
G|---------5-7-7b--|-5~-5-------7--|7b~-7-----------7--|------7-7b-5~-------7-|
D|-----5-7---------|---------------|-------------------|--------------5-7----------|
A|-5-7-------------|---------------|-------------------|----------------------------|
E|-----------------|---------------|-------------------|-----------------------------|

           F5                C5                 G5
E|--------|-----------------|------------------|-------------------------------------|
B|--------|------------5-6--|-8~-8-6-6--6p5----|---------------------------------|
G|-5------|-------5~-5------|---------------7--|-7~-7---------------5-7-7b-5~--|
D|---7-5--|-----------------|------------------|------7-7b-5~---5-7--------------|
A|--------|-7/8-8-----------|------------------|--------------7--------------------|
E|--------|-----------------|------------------|------------------------------------|
 
  Verse 2x
    "Drink in......"  "Saturday nite.."   "Me and the ..." "feeling alrite"
E|---------------------|------------------|------------------|----------------------------|
B|---------------------|------------------|------------------|----------------------------|
G|-5-5-5-5-5-5-5-5--|------------------|------------------|----------------------------|
D|-5-5-5-5-5-5-5-5--|-2-2-2-2-2-2-2-2--|-7-7-7-7-7-7-7-7--|-----------------------|
A|-3-3-3-3-3-3-3-3--|-2-2-2-2-2-2-2-2--|-7-7-7-7-7-7-7-7--|-7-7-7-5-5-5-3-0---|
E|---------------------|-0-0-0-0-0-0-0-0--|-5-5-5-5-5-5-5-5--|----------------------|

  "Then we walk.."   "Lots of pride.."   "Our roots and our way of life .."
E|---------------------|------------------|-----------------------------------------------|
B|---------------------|------------------|-----------------------------------------------|
G|---------------------|-5-5-5-5-5-5-5-5--|--------------------------------------------|
D|-3-3-3-3-3-3-3-3--|-5-5-5-5-5-5-5-5--|-5-5-5-5-5-5-5-5-5-5-5-5-5-5-5-5-------|
A|-3-3-3-3-3-3-3-3--|-3-3-3-3-3-3-3-3--|-5-5-5-5-5-5-5-5-5-5-5-5-5-5-5-5-------|
E|-1-1-1-1-1-1-1-1--|------------------|-3-3-3-3-3-3-3-3-3-3-3-3-3-3-3-3----------|

 
  Pre-Chorus
  "Thats the story ....."                "treated like a bunch of......."
E|----------------------------------------|-----------------------------------------------|
B|----------------------------------------|-----------------------------------------------|
G|----------------------------------------|-5-5-5-5-5-5-5-5-5-5-5-5-5-5-5-5---------|
D|-3-3-3-3-3-3-3-3-3-3-3-3-3-3-3-3--|-5-5-5-5-5-5-5-5-5-5-5-5-5-5-5-5---------|
A|-3-3-3-3-3-3-3-3-3-3-3-3-3-3-3-3--|-3-3-3-3-3-3-3-3-3-3-3-3-3-3-3-3---------|
E|-1-1-1-1-1-1-1-1-1-1-1-1-1-1-1-1--|-----------------------------------------------|

  "scorn by mane ........"           "there''s not much things left ......"
E|----------------------------------------|----------------------------------------------|
B|----------------------------------------|----------------------------------------------|
G|----------------------------------------|----------------------------------------------|
D|-5-5-5-5-5-5-5-5-5-5-5-5-5-5-5-5--|-3-3-3-3-3-3-3-3-3-3-3-3-3-3-3-3---------|
A|-5-5-5-5-5-5-5-5-5-5-5-5-5-5-5-5--|-3-3-3-3-3-3-3-3-3-3-3-3-3-3-3-3---------|
E|-3-3-3-3-3-3-3-3-3-3-3-3-3-3-3-3--|-1-1-1-1-1-1-1-1-1-1-1-1-1-1-1-1---------|

  "dont wanna go back ......."       "i''ve gone too far i could have ....."
E|----------------------------------------|----------------------------------------------|
B|----------------------------------------|----------------------------------------------|
G|----------------------------------------|----------------------------------------------|
D|-2-2-2-2-2-2-2-2-2-2-2-2-2-2-2-2--|-3-3-3-3-3-3-3-3-3-3-3-3-3-3-3-3---------|
A|-2-2-2-2-2-2-2-2-2-2-2-2-2-2-2-2--|-3-3-3-3-3-3-3-3-3-3-3-3-3-3-3-3---------|
E|-0-0-0-0-0-0-0-0-0-0-0-0-0-0-0-0--|-1-1-1-1-1-1-1-1-1-1-1-1-1-1-1-1---------|

  "i dont wanna sit down ....."      "watching my mens doing the best they can ...."
E|--------------------------------------|----------------------------------------------------------------|
B|--------------------------------------|----------------------------------------------------------------|
G|5-5-5-5-5-5-5-5-5-5-5-5-5-5-5-5-|----------------------------------------------------------------|
D|5-5-5-5-5-5-5-5-5-5-5-5-5-5-5-5-|-5-5-5-5-5-5-5-5-5-5-5-5-5-5-5-5-5-5-5-5-5-5-5-5-5-5-5-5-5-5-5-5|
A|3-3-3-3-3-3-3-3-3-3-3-3-3-3-3-3-|-5-5-5-5-5-5-5-5-5-5-5-5-5-5-5-5-5-5-5-5-5-5-5-5-5-5-5-5-5-5-5-5|
E|--------------------------------|-3-3-3-3-3-3-3-3-3-3-3-3-3-3-3-3-3-3-3-3-3-3-3-3-3-3-3-3-3-3-3-3|

  Chorus 2x
  "Uptown ..oh oh"   ".....street of"   "uptown ...."
E|---------------------|---------------------|--------------------|----------------------|
B|---------------------|---------------------|--------------------|----------------------|
G|-5-5-5-5-5-5-5-5--|---------------------|--------------------|----------------------|
D|-5-5-5-5-5-5-5-5--|-2-2-2-2-2-2-2-2--|-7-7-7-7-7-7-7-7--|----------------------|
A|-3-3-3-3-3-3-3-3--|-2-2-2-2-2-2-2-2--|-7-7-7-7-7-7-7-7--|-7-7-7-5-5-5-3-0---|
E|---------------------|-0-0-0-0-0-0-0-0--|-5-5-5-5-5-5-5-5--|----------------------|

  "ups and our ..."  "goes around...."  "around ............in the street of"
E|---------------------|---------------------|-------------------------------------------|
B|---------------------|---------------------|-------------------------------------------|
G|---------------------|-5-5-5-5-5-5-5-5--|-------------------------------------------|
D|-3-3-3-3-3-3-3-3--|-5-5-5-5-5-5-5-5--|-5-5-5-5-5-5-5-5-5-5-5-5-5-5-5-5------|
A|-3-3-3-3-3-3-3-3--|-3-3-3-3-3-3-3-3--|-5-5-5-5-5-5-5-5-5-5-5-5-5-5-5-5------|
E|-1-1-1-1-1-1-1-1--|---------------------|-3-3-3-3-3-3-3-3-3-3-3-3-3-3-3-3------|


  Solo 2x
  G5                C5              E                   A5
E|-------------------|----------------|---------------------|------------------------|
B|-------------------|------8-6-5----|------8-6-6-6p5----|5-5-5-------------5----|
G|---------5-7-7b--|-5~-5-------7--|7b~-7-----------7--|------7-7b-5~-------7-|
D|-----5-7---------|-----------------|---------------------|--------------5-7-------|
A|-5-7-------------|-----------------|---------------------|-------------------------|
E|------------------|-----------------|---------------------|-------------------------|

           F5                C5                 G5
E|--------|-------------------|---------------------|----------------------------------|
B|--------|------------5-6---|-8~-8-6-6--6p5----|----------------------------------|
G|-5------|-------5~-5------|---------------7-----|-7~-7---------------5-7-7b-5~-|
D|---7-5--|------------------|---------------------|------7-7b-5~---5-7-------------|
A|--------|-7/8-8------------|---------------------|--------------7-------------------|
E|--------|-------------------|---------------------|----------------------------------|

| /  slide up
|   slide down
| h  hammer-on
| p  pull-off
| ~  vibrato
| +  harmonic
| x  Mute note

End

No comments:

Post a Comment